ISO-10303-21;
HEADER;
/* Generated by software containing ST-Developer
 * from STEP Tools, Inc. (www.steptools.com) 
 */
/* OPTION: using custom schema-name function */

FILE_DESCRIPTION(
/* description */ (''),
/* implementation_level */ '2;1');

FILE_NAME(
/* name */ 'ELCO_FI0.8-KH03-CN6L_stp.stp',
/* time_stamp */ '2025-12-16T08:43:37+08:00',
/* author */ (''),
/* organization */ (''),
/* preprocessor_version */ 'ST-DEVELOPER v20',
/* originating_system */ 'SIEMENS PLM Software NX2312.1700',
/* authorisation */ '');

FILE_SCHEMA (('AUTOMOTIVE_DESIGN { 1 0 10303 214 3 1 1 1 }'));
ENDSEC;

DATA;
#10=SHAPE_REPRESENTATION_RELATIONSHIP('None',
'relationship between ELCO_FI0.8-KH03-CN6L_stp-None and ELCO_FI0.8-KH0
3-CN6L_stp-None',#22,#11);
#11=ADVANCED_BREP_SHAPE_REPRESENTATION('ELCO_FI0.8-KH03-CN6L_stp-None',
(#71,#72,#73,#74),#348);
#12=SHAPE_DEFINITION_REPRESENTATION(#13,#22);
#13=PRODUCT_DEFINITION_SHAPE('','',#14);
#14=PRODUCT_DEFINITION(' ','',#16,#15);
#15=PRODUCT_DEFINITION_CONTEXT('part definition',#21,'design');
#16=PRODUCT_DEFINITION_FORMATION_WITH_SPECIFIED_SOURCE(' ',' ',#18,
 .NOT_KNOWN.);
#17=PRODUCT_RELATED_PRODUCT_CATEGORY('part','',(#18));
#18=PRODUCT('ELCO_FI0.8-KH03-CN6L_stp','ELCO_FI0.8-KH03-CN6L_stp',' ',(#19));
#19=PRODUCT_CONTEXT(' ',#21,'mechanical');
#20=APPLICATION_PROTOCOL_DEFINITION('international standard',
'automotive_design',2010,#21);
#21=APPLICATION_CONTEXT(
'core data for automotive mechanical design processes');
#22=SHAPE_REPRESENTATION('ELCO_FI0.8-KH03-CN6L_stp-None',(#219),#348);
#23=OVER_RIDING_STYLED_ITEM('',(#31),#102,#26);
#24=OVER_RIDING_STYLED_ITEM('',(#32),#103,#26);
#25=PRESENTATION_LAYER_ASSIGNMENT('1','Layer 1',(#71,#72,#73,#74));
#26=STYLED_ITEM('',(#30),#71);
#27=STYLED_ITEM('',(#33),#72);
#28=STYLED_ITEM('',(#34),#73);
#29=STYLED_ITEM('',(#35),#74);
#30=PRESENTATION_STYLE_ASSIGNMENT((#36));
#31=PRESENTATION_STYLE_ASSIGNMENT((#37));
#32=PRESENTATION_STYLE_ASSIGNMENT((#38));
#33=PRESENTATION_STYLE_ASSIGNMENT((#39));
#34=PRESENTATION_STYLE_ASSIGNMENT((#40));
#35=PRESENTATION_STYLE_ASSIGNMENT((#41));
#36=SURFACE_STYLE_USAGE(.BOTH.,#42);
#37=SURFACE_STYLE_USAGE(.BOTH.,#43);
#38=SURFACE_STYLE_USAGE(.BOTH.,#44);
#39=SURFACE_STYLE_USAGE(.BOTH.,#45);
#40=SURFACE_STYLE_USAGE(.BOTH.,#46);
#41=SURFACE_STYLE_USAGE(.BOTH.,#47);
#42=SURFACE_SIDE_STYLE('',(#48));
#43=SURFACE_SIDE_STYLE('',(#49));
#44=SURFACE_SIDE_STYLE('',(#50));
#45=SURFACE_SIDE_STYLE('',(#51));
#46=SURFACE_SIDE_STYLE('',(#52));
#47=SURFACE_SIDE_STYLE('',(#53));
#48=SURFACE_STYLE_FILL_AREA(#54);
#49=SURFACE_STYLE_FILL_AREA(#55);
#50=SURFACE_STYLE_FILL_AREA(#56);
#51=SURFACE_STYLE_FILL_AREA(#57);
#52=SURFACE_STYLE_FILL_AREA(#58);
#53=SURFACE_STYLE_FILL_AREA(#59);
#54=FILL_AREA_STYLE('',(#60));
#55=FILL_AREA_STYLE('',(#61));
#56=FILL_AREA_STYLE('',(#62));
#57=FILL_AREA_STYLE('',(#63));
#58=FILL_AREA_STYLE('',(#64));
#59=FILL_AREA_STYLE('',(#65));
#60=FILL_AREA_STYLE_COLOUR('',#66);
#61=FILL_AREA_STYLE_COLOUR('',#67);
#62=FILL_AREA_STYLE_COLOUR('',#67);
#63=FILL_AREA_STYLE_COLOUR('',#68);
#64=FILL_AREA_STYLE_COLOUR('',#69);
#65=FILL_AREA_STYLE_COLOUR('',#70);
#66=COLOUR_RGB('silver gray',0.6,0.6,0.6);
#67=COLOUR_RGB('iron gray',0.298039215686275,0.298039215686275,0.298039215686275);
#68=COLOUR_RGB('smoke gray',0.694117647058824,0.694117647058824,0.694117647058824);
#69=COLOUR_RGB('dark gray',0.2,0.2,0.2);
#70=COLOUR_RGB('light gray',0.8,0.8,0.8);
#71=MANIFOLD_SOLID_BREP('\X2\52065272\X0\4[1]',#75);
#72=MANIFOLD_SOLID_BREP('\X2\52065272\X0\4[2]',#76);
#73=MANIFOLD_SOLID_BREP('\X2\52065272\X0\4[3]',#77);
#74=MANIFOLD_SOLID_BREP('',#78);
#75=CLOSED_SHELL('',(#101,#102,#103));
#76=CLOSED_SHELL('',(#104,#105,#106,#107,#108));
#77=CLOSED_SHELL('',(#109,#110,#111,#112,#113));
#78=CLOSED_SHELL('',(#114,#115,#116));
#79=CYLINDRICAL_SURFACE('',#224,0.7);
#80=CYLINDRICAL_SURFACE('',#227,1.50000000000509);
#81=CYLINDRICAL_SURFACE('',#232,1.10000000000509);
#82=CYLINDRICAL_SURFACE('',#237,1.5);
#83=CYLINDRICAL_SURFACE('',#240,1.4);
#84=CYLINDRICAL_SURFACE('',#245,1.1);
#85=FACE_BOUND('',#137,.T.);
#86=FACE_BOUND('',#138,.T.);
#87=FACE_BOUND('',#139,.T.);
#88=FACE_BOUND('',#140,.T.);
#89=FACE_BOUND('',#142,.T.);
#90=FACE_BOUND('',#143,.T.);
#91=FACE_BOUND('',#144,.T.);
#92=FACE_BOUND('',#145,.T.);
#93=FACE_BOUND('',#148,.T.);
#94=FACE_BOUND('',#149,.T.);
#95=FACE_BOUND('',#150,.T.);
#96=FACE_BOUND('',#151,.T.);
#97=FACE_BOUND('',#152,.T.);
#98=FACE_BOUND('',#153,.T.);
#99=FACE_BOUND('',#155,.T.);
#100=FACE_BOUND('',#156,.T.);
#101=ADVANCED_FACE('',(#127),#117,.F.);
#102=ADVANCED_FACE('',(#128),#118,.T.);
#103=ADVANCED_FACE('',(#85,#86),#79,.T.);
#104=ADVANCED_FACE('',(#87,#88),#80,.T.);
#105=ADVANCED_FACE('',(#129),#119,.T.);
#106=ADVANCED_FACE('',(#89,#90),#120,.F.);
#107=ADVANCED_FACE('',(#91,#92),#81,.F.);
#108=ADVANCED_FACE('',(#130),#121,.T.);
#109=ADVANCED_FACE('',(#131),#122,.F.);
#110=ADVANCED_FACE('',(#93,#94),#82,.T.);
#111=ADVANCED_FACE('',(#95,#96),#83,.T.);
#112=ADVANCED_FACE('',(#97,#98),#123,.T.);
#113=ADVANCED_FACE('',(#132),#124,.F.);
#114=ADVANCED_FACE('',(#99,#100),#84,.T.);
#115=ADVANCED_FACE('',(#133),#125,.F.);
#116=ADVANCED_FACE('',(#134),#126,.T.);
#117=PLANE('',#221);
#118=PLANE('',#223);
#119=PLANE('',#228);
#120=PLANE('',#230);
#121=PLANE('',#233);
#122=PLANE('',#235);
#123=PLANE('',#241);
#124=PLANE('',#242);
#125=PLANE('',#246);
#126=PLANE('',#247);
#127=FACE_OUTER_BOUND('',#135,.T.);
#128=FACE_OUTER_BOUND('',#136,.T.);
#129=FACE_OUTER_BOUND('',#141,.T.);
#130=FACE_OUTER_BOUND('',#146,.T.);
#131=FACE_OUTER_BOUND('',#147,.T.);
#132=FACE_OUTER_BOUND('',#154,.T.);
#133=FACE_OUTER_BOUND('',#157,.T.);
#134=FACE_OUTER_BOUND('',#158,.T.);
#135=EDGE_LOOP('',(#159));
#136=EDGE_LOOP('',(#160));
#137=EDGE_LOOP('',(#161));
#138=EDGE_LOOP('',(#162));
#139=EDGE_LOOP('',(#163));
#140=EDGE_LOOP('',(#164));
#141=EDGE_LOOP('',(#165));
#142=EDGE_LOOP('',(#166));
#143=EDGE_LOOP('',(#167));
#144=EDGE_LOOP('',(#168));
#145=EDGE_LOOP('',(#169));
#146=EDGE_LOOP('',(#170));
#147=EDGE_LOOP('',(#171));
#148=EDGE_LOOP('',(#172));
#149=EDGE_LOOP('',(#173));
#150=EDGE_LOOP('',(#174));
#151=EDGE_LOOP('',(#175));
#152=EDGE_LOOP('',(#176));
#153=EDGE_LOOP('',(#177));
#154=EDGE_LOOP('',(#178));
#155=EDGE_LOOP('',(#179));
#156=EDGE_LOOP('',(#180));
#157=EDGE_LOOP('',(#181));
#158=EDGE_LOOP('',(#182));
#159=ORIENTED_EDGE('',*,*,#195,.T.);
#160=ORIENTED_EDGE('',*,*,#196,.F.);
#161=ORIENTED_EDGE('',*,*,#196,.T.);
#162=ORIENTED_EDGE('',*,*,#195,.F.);
#163=ORIENTED_EDGE('',*,*,#197,.F.);
#164=ORIENTED_EDGE('',*,*,#198,.F.);
#165=ORIENTED_EDGE('',*,*,#197,.T.);
#166=ORIENTED_EDGE('',*,*,#199,.F.);
#167=ORIENTED_EDGE('',*,*,#198,.T.);
#168=ORIENTED_EDGE('',*,*,#200,.F.);
#169=ORIENTED_EDGE('',*,*,#199,.T.);
#170=ORIENTED_EDGE('',*,*,#200,.T.);
#171=ORIENTED_EDGE('',*,*,#201,.T.);
#172=ORIENTED_EDGE('',*,*,#202,.F.);
#173=ORIENTED_EDGE('',*,*,#201,.F.);
#174=ORIENTED_EDGE('',*,*,#203,.T.);
#175=ORIENTED_EDGE('',*,*,#204,.F.);
#176=ORIENTED_EDGE('',*,*,#202,.T.);
#177=ORIENTED_EDGE('',*,*,#203,.F.);
#178=ORIENTED_EDGE('',*,*,#204,.T.);
#179=ORIENTED_EDGE('',*,*,#205,.T.);
#180=ORIENTED_EDGE('',*,*,#206,.F.);
#181=ORIENTED_EDGE('',*,*,#205,.F.);
#182=ORIENTED_EDGE('',*,*,#206,.T.);
#183=VERTEX_POINT('',#308);
#184=VERTEX_POINT('',#311);
#185=VERTEX_POINT('',#315);
#186=VERTEX_POINT('',#317);
#187=VERTEX_POINT('',#321);
#188=VERTEX_POINT('',#324);
#189=VERTEX_POINT('',#328);
#190=VERTEX_POINT('',#331);
#191=VERTEX_POINT('',#334);
#192=VERTEX_POINT('',#336);
#193=VERTEX_POINT('',#341);
#194=VERTEX_POINT('',#343);
#195=EDGE_CURVE('',#183,#183,#207,.T.);
#196=EDGE_CURVE('',#184,#184,#208,.T.);
#197=EDGE_CURVE('',#185,#185,#209,.T.);
#198=EDGE_CURVE('',#186,#186,#210,.T.);
#199=EDGE_CURVE('',#187,#187,#211,.T.);
#200=EDGE_CURVE('',#188,#188,#212,.T.);
#201=EDGE_CURVE('',#189,#189,#213,.T.);
#202=EDGE_CURVE('',#190,#190,#214,.T.);
#203=EDGE_CURVE('',#191,#191,#215,.T.);
#204=EDGE_CURVE('',#192,#192,#216,.T.);
#205=EDGE_CURVE('',#193,#193,#217,.T.);
#206=EDGE_CURVE('',#194,#194,#218,.T.);
#207=CIRCLE('',#220,0.7);
#208=CIRCLE('',#222,0.7);
#209=CIRCLE('',#225,1.50000000000509);
#210=CIRCLE('',#226,1.50000000000509);
#211=CIRCLE('',#229,1.10000000000509);
#212=CIRCLE('',#231,1.10000000000509);
#213=CIRCLE('',#234,1.5);
#214=CIRCLE('',#236,1.5);
#215=CIRCLE('',#238,1.4);
#216=CIRCLE('',#239,1.4);
#217=CIRCLE('',#243,1.1);
#218=CIRCLE('',#244,1.1);
#219=AXIS2_PLACEMENT_3D('',#306,#248,#249);
#220=AXIS2_PLACEMENT_3D('',#307,#250,#251);
#221=AXIS2_PLACEMENT_3D('',#309,#252,#253);
#222=AXIS2_PLACEMENT_3D('',#310,#254,#255);
#223=AXIS2_PLACEMENT_3D('',#312,#256,#257);
#224=AXIS2_PLACEMENT_3D('',#313,#258,#259);
#225=AXIS2_PLACEMENT_3D('',#314,#260,#261);
#226=AXIS2_PLACEMENT_3D('',#316,#262,#263);
#227=AXIS2_PLACEMENT_3D('',#318,#264,#265);
#228=AXIS2_PLACEMENT_3D('',#319,#266,#267);
#229=AXIS2_PLACEMENT_3D('',#320,#268,#269);
#230=AXIS2_PLACEMENT_3D('',#322,#270,#271);
#231=AXIS2_PLACEMENT_3D('',#323,#272,#273);
#232=AXIS2_PLACEMENT_3D('',#325,#274,#275);
#233=AXIS2_PLACEMENT_3D('',#326,#276,#277);
#234=AXIS2_PLACEMENT_3D('',#327,#278,#279);
#235=AXIS2_PLACEMENT_3D('',#329,#280,#281);
#236=AXIS2_PLACEMENT_3D('',#330,#282,#283);
#237=AXIS2_PLACEMENT_3D('',#332,#284,#285);
#238=AXIS2_PLACEMENT_3D('',#333,#286,#287);
#239=AXIS2_PLACEMENT_3D('',#335,#288,#289);
#240=AXIS2_PLACEMENT_3D('',#337,#290,#291);
#241=AXIS2_PLACEMENT_3D('',#338,#292,#293);
#242=AXIS2_PLACEMENT_3D('',#339,#294,#295);
#243=AXIS2_PLACEMENT_3D('',#340,#296,#297);
#244=AXIS2_PLACEMENT_3D('',#342,#298,#299);
#245=AXIS2_PLACEMENT_3D('',#344,#300,#301);
#246=AXIS2_PLACEMENT_3D('',#345,#302,#303);
#247=AXIS2_PLACEMENT_3D('',#346,#304,#305);
#248=DIRECTION('',(0.,0.,1.));
#249=DIRECTION('',(1.,0.,0.));
#250=DIRECTION('',(0.,-1.,0.));
#251=DIRECTION('',(0.,0.,1.));
#252=DIRECTION('',(0.,1.,0.));
#253=DIRECTION('',(0.,0.,1.));
#254=DIRECTION('',(0.,-1.,0.));
#255=DIRECTION('',(0.,0.,1.));
#256=DIRECTION('',(0.,1.,0.));
#257=DIRECTION('',(0.,0.,1.));
#258=DIRECTION('',(0.,1.,0.));
#259=DIRECTION('',(0.,0.,1.));
#260=DIRECTION('',(0.,-1.,0.));
#261=DIRECTION('',(0.,0.,-1.));
#262=DIRECTION('',(0.,1.,0.));
#263=DIRECTION('',(0.,0.,1.));
#264=DIRECTION('',(0.,1.,0.));
#265=DIRECTION('',(0.,0.,1.));
#266=DIRECTION('',(0.,-1.,0.));
#267=DIRECTION('',(0.,0.,-1.));
#268=DIRECTION('',(0.,1.,0.));
#269=DIRECTION('',(0.,0.,1.));
#270=DIRECTION('',(0.,-1.,0.));
#271=DIRECTION('',(0.,0.,-1.));
#272=DIRECTION('',(0.,1.,0.));
#273=DIRECTION('',(0.,0.,1.));
#274=DIRECTION('',(0.,1.,0.));
#275=DIRECTION('',(0.,0.,1.));
#276=DIRECTION('',(0.,1.,0.));
#277=DIRECTION('',(0.,0.,1.));
#278=DIRECTION('',(0.,-1.,0.));
#279=DIRECTION('',(0.,0.,1.));
#280=DIRECTION('',(0.,1.,0.));
#281=DIRECTION('',(0.,0.,1.));
#282=DIRECTION('',(0.,1.,0.));
#283=DIRECTION('',(0.,0.,1.));
#284=DIRECTION('',(0.,-1.,0.));
#285=DIRECTION('',(0.,0.,-1.));
#286=DIRECTION('',(0.,1.,0.));
#287=DIRECTION('',(0.,0.,1.));
#288=DIRECTION('',(0.,1.,0.));
#289=DIRECTION('',(0.,0.,-1.));
#290=DIRECTION('',(0.,1.,0.));
#291=DIRECTION('',(0.,0.,1.));
#292=DIRECTION('',(0.,1.,0.));
#293=DIRECTION('',(0.,0.,1.));
#294=DIRECTION('',(0.,-1.,0.));
#295=DIRECTION('',(0.,0.,-1.));
#296=DIRECTION('',(0.,1.,0.));
#297=DIRECTION('',(0.,0.,1.));
#298=DIRECTION('',(0.,1.,0.));
#299=DIRECTION('',(0.,0.,1.));
#300=DIRECTION('',(0.,1.,0.));
#301=DIRECTION('',(0.,0.,1.));
#302=DIRECTION('',(0.,1.,0.));
#303=DIRECTION('',(0.,0.,1.));
#304=DIRECTION('',(0.,1.,0.));
#305=DIRECTION('',(0.,0.,1.));
#306=CARTESIAN_POINT('',(0.,0.,0.));
#307=CARTESIAN_POINT('',(0.,30.1,0.));
#308=CARTESIAN_POINT('',(0.,30.1,0.7));
#309=CARTESIAN_POINT('',(7.72494047895922E-16,30.1,-2.85));
#310=CARTESIAN_POINT('',(0.,49.1,0.));
#311=CARTESIAN_POINT('',(0.,49.1,0.7));
#312=CARTESIAN_POINT('',(0.,49.1,0.));
#313=CARTESIAN_POINT('',(0.,29.1,0.));
#314=CARTESIAN_POINT('',(0.,0.109999999954504,0.));
#315=CARTESIAN_POINT('',(0.,0.109999999954504,-1.50000000000509));
#316=CARTESIAN_POINT('',(0.,30.1,0.));
#317=CARTESIAN_POINT('',(0.,30.1,1.50000000000509));
#318=CARTESIAN_POINT('',(0.,0.0999999999545045,0.));
#319=CARTESIAN_POINT('',(0.,0.109999999954504,0.));
#320=CARTESIAN_POINT('',(0.,30.1,0.));
#321=CARTESIAN_POINT('',(0.,30.1,1.10000000000509));
#322=CARTESIAN_POINT('',(0.,30.1,0.));
#323=CARTESIAN_POINT('',(0.,30.09,0.));
#324=CARTESIAN_POINT('',(0.,30.09,1.10000000000509));
#325=CARTESIAN_POINT('',(0.,30.09,0.));
#326=CARTESIAN_POINT('',(7.72494047895922E-16,30.09,-2.85));
#327=CARTESIAN_POINT('',(0.,0.100000000000003,0.));
#328=CARTESIAN_POINT('',(0.,0.100000000000003,1.5));
#329=CARTESIAN_POINT('',(0.,0.100000000000003,0.));
#330=CARTESIAN_POINT('',(0.,0.110000000000003,0.));
#331=CARTESIAN_POINT('',(0.,0.110000000000003,1.5));
#332=CARTESIAN_POINT('',(0.,1.1,0.));
#333=CARTESIAN_POINT('',(0.,0.110000000000003,0.));
#334=CARTESIAN_POINT('',(0.,0.110000000000003,1.4));
#335=CARTESIAN_POINT('',(0.,1.1,0.));
#336=CARTESIAN_POINT('',(0.,1.1,-1.4));
#337=CARTESIAN_POINT('',(0.,0.110000000000003,0.));
#338=CARTESIAN_POINT('',(0.,0.110000000000003,0.));
#339=CARTESIAN_POINT('',(0.,1.1,0.));
#340=CARTESIAN_POINT('',(0.,28.1,0.));
#341=CARTESIAN_POINT('',(0.,28.1,1.1));
#342=CARTESIAN_POINT('',(0.,30.1,0.));
#343=CARTESIAN_POINT('',(0.,30.1,1.1));
#344=CARTESIAN_POINT('',(0.,28.1,0.));
#345=CARTESIAN_POINT('',(0.,28.1,0.));
#346=CARTESIAN_POINT('',(0.,30.1,0.));
#347=MECHANICAL_DESIGN_GEOMETRIC_PRESENTATION_REPRESENTATION('',(#26,#23,
#24,#27,#28,#29),#348);
#348=(
GEOMETRIC_REPRESENTATION_CONTEXT(3)
GLOBAL_UNCERTAINTY_ASSIGNED_CONTEXT((#349))
GLOBAL_UNIT_ASSIGNED_CONTEXT((#355,#351,#350))
REPRESENTATION_CONTEXT('ELCO_FI0','TOP_LEVEL_ASSEMBLY_PART')
);
#349=UNCERTAINTY_MEASURE_WITH_UNIT(LENGTH_MEASURE(0.001),#355,
'DISTANCE_ACCURACY_VALUE','Maximum Tolerance applied to model');
#350=(
NAMED_UNIT(*)
SI_UNIT($,.STERADIAN.)
SOLID_ANGLE_UNIT()
);
#351=(
CONVERSION_BASED_UNIT('DEGREE',#353)
NAMED_UNIT(#352)
PLANE_ANGLE_UNIT()
);
#352=DIMENSIONAL_EXPONENTS(0.,0.,0.,0.,0.,0.,0.);
#353=PLANE_ANGLE_MEASURE_WITH_UNIT(PLANE_ANGLE_MEASURE(0.0174532925),#354);
#354=(
NAMED_UNIT(*)
PLANE_ANGLE_UNIT()
SI_UNIT($,.RADIAN.)
);
#355=(
LENGTH_UNIT()
NAMED_UNIT(*)
SI_UNIT(.MILLI.,.METRE.)
);
ENDSEC;
END-ISO-10303-21;
