ISO-10303-21;
HEADER;
FILE_DESCRIPTION((''),'2;1');
FILE_NAME('RF30-TGH-ER3016K','2024-11-08T09:34:58',('elco'),(''),
'CREO PARAMETRIC BY PTC INC, 2022424','CREO PARAMETRIC BY PTC INC, 2022424','');
FILE_SCHEMA(('CONFIG_CONTROL_DESIGN'));
ENDSEC;
DATA;
#2=CARTESIAN_POINT('',(0.E0,0.E0,5.E-1));
#3=DIRECTION('',(0.E0,0.E0,-1.E0));
#4=DIRECTION('',(-1.E0,0.E0,0.E0));
#5=AXIS2_PLACEMENT_3D('',#2,#3,#4);
#7=CARTESIAN_POINT('',(0.E0,0.E0,1.464466094067E-1));
#8=DIRECTION('',(0.E0,0.E0,1.E0));
#9=DIRECTION('',(1.E0,0.E0,0.E0));
#10=AXIS2_PLACEMENT_3D('',#7,#8,#9);
#12=CARTESIAN_POINT('',(0.E0,0.E0,5.E-1));
#13=DIRECTION('',(0.E0,0.E0,-1.E0));
#14=DIRECTION('',(1.E0,0.E0,0.E0));
#15=AXIS2_PLACEMENT_3D('',#12,#13,#14);
#17=CARTESIAN_POINT('',(1.45E1,0.E0,5.E-1));
#18=DIRECTION('',(0.E0,-1.E0,0.E0));
#19=DIRECTION('',(7.071067811865E-1,0.E0,-7.071067811865E-1));
#20=AXIS2_PLACEMENT_3D('',#17,#18,#19);
#22=CARTESIAN_POINT('',(0.E0,0.E0,1.464466094067E-1));
#23=DIRECTION('',(0.E0,0.E0,1.E0));
#24=DIRECTION('',(-1.E0,0.E0,0.E0));
#25=AXIS2_PLACEMENT_3D('',#22,#23,#24);
#27=CARTESIAN_POINT('',(-1.45E1,0.E0,5.E-1));
#28=DIRECTION('',(0.E0,1.E0,0.E0));
#29=DIRECTION('',(-7.071067811865E-1,0.E0,-7.071067811865E-1));
#30=AXIS2_PLACEMENT_3D('',#27,#28,#29);
#32=DIRECTION('',(0.E0,0.E0,-1.E0));
#33=VECTOR('',#32,2.E0);
#34=CARTESIAN_POINT('',(-1.5E1,0.E0,2.5E0));
#35=LINE('',#34,#33);
#36=DIRECTION('',(0.E0,0.E0,-1.E0));
#37=VECTOR('',#36,2.E0);
#38=CARTESIAN_POINT('',(1.5E1,0.E0,2.5E0));
#39=LINE('',#38,#37);
#40=CARTESIAN_POINT('',(0.E0,0.E0,2.5E0));
#41=DIRECTION('',(0.E0,0.E0,1.E0));
#42=DIRECTION('',(-1.E0,0.E0,0.E0));
#43=AXIS2_PLACEMENT_3D('',#40,#41,#42);
#45=CARTESIAN_POINT('',(-1.45E1,0.E0,2.5E0));
#46=DIRECTION('',(0.E0,1.E0,0.E0));
#47=DIRECTION('',(-1.E0,0.E0,0.E0));
#48=AXIS2_PLACEMENT_3D('',#45,#46,#47);
#50=CARTESIAN_POINT('',(1.45E1,0.E0,2.5E0));
#51=DIRECTION('',(0.E0,-1.E0,0.E0));
#52=DIRECTION('',(1.E0,0.E0,0.E0));
#53=AXIS2_PLACEMENT_3D('',#50,#51,#52);
#55=CARTESIAN_POINT('',(0.E0,0.E0,2.5E0));
#56=DIRECTION('',(0.E0,0.E0,1.E0));
#57=DIRECTION('',(1.E0,0.E0,0.E0));
#58=AXIS2_PLACEMENT_3D('',#55,#56,#57);
#60=CARTESIAN_POINT('',(0.E0,0.E0,2.853553390593E0));
#61=DIRECTION('',(0.E0,0.E0,1.E0));
#62=DIRECTION('',(1.E0,0.E0,0.E0));
#63=AXIS2_PLACEMENT_3D('',#60,#61,#62);
#65=CARTESIAN_POINT('',(0.E0,0.E0,3.E0));
#66=DIRECTION('',(0.E0,0.E0,1.E0));
#67=DIRECTION('',(1.E0,0.E0,0.E0));
#68=AXIS2_PLACEMENT_3D('',#65,#66,#67);
#70=CARTESIAN_POINT('',(0.E0,0.E0,3.E0));
#71=DIRECTION('',(0.E0,0.E0,1.E0));
#72=DIRECTION('',(-1.E0,0.E0,0.E0));
#73=AXIS2_PLACEMENT_3D('',#70,#71,#72);
#75=CARTESIAN_POINT('',(0.E0,0.E0,3.E0));
#76=DIRECTION('',(0.E0,0.E0,-1.E0));
#77=DIRECTION('',(1.E0,0.E0,0.E0));
#78=AXIS2_PLACEMENT_3D('',#75,#76,#77);
#80=CARTESIAN_POINT('',(0.E0,0.E0,3.E0));
#81=DIRECTION('',(0.E0,0.E0,-1.E0));
#82=DIRECTION('',(-1.E0,0.E0,0.E0));
#83=AXIS2_PLACEMENT_3D('',#80,#81,#82);
#85=CARTESIAN_POINT('',(1.45E1,0.E0,2.5E0));
#86=DIRECTION('',(0.E0,-1.E0,0.E0));
#87=DIRECTION('',(7.071067811865E-1,0.E0,7.071067811865E-1));
#88=AXIS2_PLACEMENT_3D('',#85,#86,#87);
#90=CARTESIAN_POINT('',(0.E0,0.E0,2.853553390593E0));
#91=DIRECTION('',(0.E0,0.E0,1.E0));
#92=DIRECTION('',(-1.E0,0.E0,0.E0));
#93=AXIS2_PLACEMENT_3D('',#90,#91,#92);
#95=CARTESIAN_POINT('',(-1.45E1,0.E0,2.5E0));
#96=DIRECTION('',(0.E0,1.E0,0.E0));
#97=DIRECTION('',(-7.071067811865E-1,0.E0,7.071067811865E-1));
#98=AXIS2_PLACEMENT_3D('',#95,#96,#97);
#100=DIRECTION('',(0.E0,0.E0,-1.E0));
#101=VECTOR('',#100,3.E0);
#102=CARTESIAN_POINT('',(-2.5E0,0.E0,3.E0));
#103=LINE('',#102,#101);
#104=DIRECTION('',(0.E0,0.E0,-1.E0));
#105=VECTOR('',#104,3.E0);
#106=CARTESIAN_POINT('',(2.5E0,0.E0,3.E0));
#107=LINE('',#106,#105);
#108=CARTESIAN_POINT('',(0.E0,0.E0,0.E0));
#109=DIRECTION('',(0.E0,0.E0,-1.E0));
#110=DIRECTION('',(1.E0,0.E0,0.E0));
#111=AXIS2_PLACEMENT_3D('',#108,#109,#110);
#113=CARTESIAN_POINT('',(0.E0,0.E0,0.E0));
#114=DIRECTION('',(0.E0,0.E0,-1.E0));
#115=DIRECTION('',(-1.E0,0.E0,0.E0));
#116=AXIS2_PLACEMENT_3D('',#113,#114,#115);
#118=CARTESIAN_POINT('',(0.E0,0.E0,0.E0));
#119=DIRECTION('',(0.E0,0.E0,1.E0));
#120=DIRECTION('',(1.E0,0.E0,0.E0));
#121=AXIS2_PLACEMENT_3D('',#118,#119,#120);
#123=CARTESIAN_POINT('',(0.E0,0.E0,0.E0));
#124=DIRECTION('',(0.E0,0.E0,1.E0));
#125=DIRECTION('',(-1.E0,0.E0,0.E0));
#126=AXIS2_PLACEMENT_3D('',#123,#124,#125);
#128=CARTESIAN_POINT('',(-1.45E1,0.E0,5.E-1));
#129=DIRECTION('',(0.E0,1.E0,0.E0));
#130=DIRECTION('',(0.E0,0.E0,-1.E0));
#131=AXIS2_PLACEMENT_3D('',#128,#129,#130);
#133=CARTESIAN_POINT('',(1.45E1,0.E0,5.E-1));
#134=DIRECTION('',(0.E0,-1.E0,0.E0));
#135=DIRECTION('',(0.E0,0.E0,-1.E0));
#136=AXIS2_PLACEMENT_3D('',#133,#134,#135);
#138=CARTESIAN_POINT('',(1.5E1,0.E0,2.5E0));
#139=CARTESIAN_POINT('',(1.5E1,0.E0,5.E-1));
#140=VERTEX_POINT('',#138);
#141=VERTEX_POINT('',#139);
#142=CARTESIAN_POINT('',(-1.5E1,0.E0,2.5E0));
#143=CARTESIAN_POINT('',(-1.5E1,0.E0,5.E-1));
#144=VERTEX_POINT('',#142);
#145=VERTEX_POINT('',#143);
#146=CARTESIAN_POINT('',(2.5E0,0.E0,3.E0));
#147=CARTESIAN_POINT('',(2.5E0,0.E0,0.E0));
#148=VERTEX_POINT('',#146);
#149=VERTEX_POINT('',#147);
#150=CARTESIAN_POINT('',(-2.5E0,0.E0,3.E0));
#151=CARTESIAN_POINT('',(-2.5E0,0.E0,0.E0));
#152=VERTEX_POINT('',#150);
#153=VERTEX_POINT('',#151);
#154=CARTESIAN_POINT('',(1.45E1,0.E0,0.E0));
#155=CARTESIAN_POINT('',(1.485355339059E1,0.E0,1.464466094067E-1));
#156=VERTEX_POINT('',#154);
#157=VERTEX_POINT('',#155);
#158=CARTESIAN_POINT('',(-1.485355339059E1,0.E0,1.464466094067E-1));
#159=VERTEX_POINT('',#158);
#160=CARTESIAN_POINT('',(-1.45E1,0.E0,0.E0));
#161=VERTEX_POINT('',#160);
#162=CARTESIAN_POINT('',(1.485355339059E1,0.E0,2.853553390593E0));
#163=VERTEX_POINT('',#162);
#164=CARTESIAN_POINT('',(-1.485355339059E1,0.E0,2.853553390593E0));
#165=VERTEX_POINT('',#164);
#166=CARTESIAN_POINT('',(-1.45E1,0.E0,3.E0));
#167=VERTEX_POINT('',#166);
#168=CARTESIAN_POINT('',(1.45E1,0.E0,3.E0));
#169=VERTEX_POINT('',#168);
#170=CARTESIAN_POINT('',(0.E0,0.E0,3.E0));
#171=DIRECTION('',(0.E0,0.E0,-1.E0));
#172=DIRECTION('',(-1.E0,0.E0,0.E0));
#173=AXIS2_PLACEMENT_3D('',#170,#171,#172);
#174=CYLINDRICAL_SURFACE('',#173,1.5E1);
#176=ORIENTED_EDGE('',*,*,#175,.T.);
#178=ORIENTED_EDGE('',*,*,#177,.F.);
#180=ORIENTED_EDGE('',*,*,#179,.T.);
#182=ORIENTED_EDGE('',*,*,#181,.T.);
#183=EDGE_LOOP('',(#176,#178,#180,#182));
#184=FACE_OUTER_BOUND('',#183,.F.);
#185=ADVANCED_FACE('',(#184),#174,.T.);
#186=CARTESIAN_POINT('',(0.E0,0.E0,5.E-1));
#187=DIRECTION('',(0.E0,0.E0,1.E0));
#188=DIRECTION('',(1.E0,0.E0,0.E0));
#189=AXIS2_PLACEMENT_3D('',#186,#187,#188);
#190=TOROIDAL_SURFACE('',#189,1.45E1,5.E-1);
#191=ORIENTED_EDGE('',*,*,#175,.F.);
#193=ORIENTED_EDGE('',*,*,#192,.F.);
#195=ORIENTED_EDGE('',*,*,#194,.F.);
#197=ORIENTED_EDGE('',*,*,#196,.T.);
#198=EDGE_LOOP('',(#191,#193,#195,#197));
#199=FACE_OUTER_BOUND('',#198,.F.);
#200=ADVANCED_FACE('',(#199),#190,.T.);
#201=CARTESIAN_POINT('',(0.E0,0.E0,5.E-1));
#202=DIRECTION('',(0.E0,0.E0,1.E0));
#203=DIRECTION('',(1.E0,0.E0,0.E0));
#204=AXIS2_PLACEMENT_3D('',#201,#202,#203);
#205=TOROIDAL_SURFACE('',#204,1.45E1,5.E-1);
#207=ORIENTED_EDGE('',*,*,#206,.F.);
#208=ORIENTED_EDGE('',*,*,#196,.F.);
#210=ORIENTED_EDGE('',*,*,#209,.F.);
#211=ORIENTED_EDGE('',*,*,#192,.T.);
#212=EDGE_LOOP('',(#207,#208,#210,#211));
#213=FACE_OUTER_BOUND('',#212,.F.);
#214=ADVANCED_FACE('',(#213),#205,.T.);
#215=CARTESIAN_POINT('',(0.E0,0.E0,3.E0));
#216=DIRECTION('',(0.E0,0.E0,-1.E0));
#217=DIRECTION('',(-1.E0,0.E0,0.E0));
#218=AXIS2_PLACEMENT_3D('',#215,#216,#217);
#219=CYLINDRICAL_SURFACE('',#218,1.5E1);
#220=ORIENTED_EDGE('',*,*,#206,.T.);
#221=ORIENTED_EDGE('',*,*,#181,.F.);
#223=ORIENTED_EDGE('',*,*,#222,.T.);
#224=ORIENTED_EDGE('',*,*,#177,.T.);
#225=EDGE_LOOP('',(#220,#221,#223,#224));
#226=FACE_OUTER_BOUND('',#225,.F.);
#227=ADVANCED_FACE('',(#226),#219,.T.);
#228=CARTESIAN_POINT('',(0.E0,0.E0,2.5E0));
#229=DIRECTION('',(0.E0,0.E0,1.E0));
#230=DIRECTION('',(1.E0,0.E0,0.E0));
#231=AXIS2_PLACEMENT_3D('',#228,#229,#230);
#232=TOROIDAL_SURFACE('',#231,1.45E1,5.E-1);
#233=ORIENTED_EDGE('',*,*,#222,.F.);
#235=ORIENTED_EDGE('',*,*,#234,.T.);
#237=ORIENTED_EDGE('',*,*,#236,.T.);
#239=ORIENTED_EDGE('',*,*,#238,.F.);
#240=EDGE_LOOP('',(#233,#235,#237,#239));
#241=FACE_OUTER_BOUND('',#240,.F.);
#242=ADVANCED_FACE('',(#241),#232,.T.);
#243=CARTESIAN_POINT('',(0.E0,0.E0,2.5E0));
#244=DIRECTION('',(0.E0,0.E0,1.E0));
#245=DIRECTION('',(1.E0,0.E0,0.E0));
#246=AXIS2_PLACEMENT_3D('',#243,#244,#245);
#247=TOROIDAL_SURFACE('',#246,1.45E1,5.E-1);
#248=ORIENTED_EDGE('',*,*,#179,.F.);
#249=ORIENTED_EDGE('',*,*,#238,.T.);
#251=ORIENTED_EDGE('',*,*,#250,.T.);
#252=ORIENTED_EDGE('',*,*,#234,.F.);
#253=EDGE_LOOP('',(#248,#249,#251,#252));
#254=FACE_OUTER_BOUND('',#253,.F.);
#255=ADVANCED_FACE('',(#254),#247,.T.);
#256=CARTESIAN_POINT('',(0.E0,0.E0,2.5E0));
#257=DIRECTION('',(0.E0,0.E0,1.E0));
#258=DIRECTION('',(1.E0,0.E0,0.E0));
#259=AXIS2_PLACEMENT_3D('',#256,#257,#258);
#260=TOROIDAL_SURFACE('',#259,1.45E1,5.E-1);
#262=ORIENTED_EDGE('',*,*,#261,.T.);
#264=ORIENTED_EDGE('',*,*,#263,.F.);
#265=ORIENTED_EDGE('',*,*,#250,.F.);
#267=ORIENTED_EDGE('',*,*,#266,.T.);
#268=EDGE_LOOP('',(#262,#264,#265,#267));
#269=FACE_OUTER_BOUND('',#268,.F.);
#270=ADVANCED_FACE('',(#269),#260,.T.);
#271=CARTESIAN_POINT('',(0.E0,0.E0,3.E0));
#272=DIRECTION('',(0.E0,0.E0,1.E0));
#273=DIRECTION('',(1.E0,0.E0,0.E0));
#274=AXIS2_PLACEMENT_3D('',#271,#272,#273);
#275=PLANE('',#274);
#276=ORIENTED_EDGE('',*,*,#261,.F.);
#278=ORIENTED_EDGE('',*,*,#277,.F.);
#279=EDGE_LOOP('',(#276,#278));
#280=FACE_OUTER_BOUND('',#279,.F.);
#282=ORIENTED_EDGE('',*,*,#281,.F.);
#284=ORIENTED_EDGE('',*,*,#283,.F.);
#285=EDGE_LOOP('',(#282,#284));
#286=FACE_BOUND('',#285,.F.);
#287=ADVANCED_FACE('',(#280,#286),#275,.T.);
#288=CARTESIAN_POINT('',(0.E0,0.E0,2.5E0));
#289=DIRECTION('',(0.E0,0.E0,1.E0));
#290=DIRECTION('',(1.E0,0.E0,0.E0));
#291=AXIS2_PLACEMENT_3D('',#288,#289,#290);
#292=TOROIDAL_SURFACE('',#291,1.45E1,5.E-1);
#293=ORIENTED_EDGE('',*,*,#277,.T.);
#294=ORIENTED_EDGE('',*,*,#266,.F.);
#295=ORIENTED_EDGE('',*,*,#236,.F.);
#296=ORIENTED_EDGE('',*,*,#263,.T.);
#297=EDGE_LOOP('',(#293,#294,#295,#296));
#298=FACE_OUTER_BOUND('',#297,.F.);
#299=ADVANCED_FACE('',(#298),#292,.T.);
#300=CARTESIAN_POINT('',(0.E0,0.E0,3.E0));
#301=DIRECTION('',(0.E0,0.E0,-1.E0));
#302=DIRECTION('',(-1.E0,0.E0,0.E0));
#303=AXIS2_PLACEMENT_3D('',#300,#301,#302);
#304=CYLINDRICAL_SURFACE('',#303,2.5E0);
#305=ORIENTED_EDGE('',*,*,#281,.T.);
#307=ORIENTED_EDGE('',*,*,#306,.T.);
#309=ORIENTED_EDGE('',*,*,#308,.T.);
#311=ORIENTED_EDGE('',*,*,#310,.F.);
#312=EDGE_LOOP('',(#305,#307,#309,#311));
#313=FACE_OUTER_BOUND('',#312,.F.);
#314=ADVANCED_FACE('',(#313),#304,.F.);
#315=CARTESIAN_POINT('',(0.E0,0.E0,3.E0));
#316=DIRECTION('',(0.E0,0.E0,-1.E0));
#317=DIRECTION('',(-1.E0,0.E0,0.E0));
#318=AXIS2_PLACEMENT_3D('',#315,#316,#317);
#319=CYLINDRICAL_SURFACE('',#318,2.5E0);
#320=ORIENTED_EDGE('',*,*,#283,.T.);
#321=ORIENTED_EDGE('',*,*,#310,.T.);
#323=ORIENTED_EDGE('',*,*,#322,.T.);
#324=ORIENTED_EDGE('',*,*,#306,.F.);
#325=EDGE_LOOP('',(#320,#321,#323,#324));
#326=FACE_OUTER_BOUND('',#325,.F.);
#327=ADVANCED_FACE('',(#326),#319,.F.);
#328=CARTESIAN_POINT('',(0.E0,0.E0,0.E0));
#329=DIRECTION('',(0.E0,0.E0,1.E0));
#330=DIRECTION('',(1.E0,0.E0,0.E0));
#331=AXIS2_PLACEMENT_3D('',#328,#329,#330);
#332=PLANE('',#331);
#334=ORIENTED_EDGE('',*,*,#333,.F.);
#336=ORIENTED_EDGE('',*,*,#335,.F.);
#337=EDGE_LOOP('',(#334,#336));
#338=FACE_OUTER_BOUND('',#337,.F.);
#339=ORIENTED_EDGE('',*,*,#322,.F.);
#340=ORIENTED_EDGE('',*,*,#308,.F.);
#341=EDGE_LOOP('',(#339,#340));
#342=FACE_BOUND('',#341,.F.);
#343=ADVANCED_FACE('',(#338,#342),#332,.F.);
#344=CARTESIAN_POINT('',(0.E0,0.E0,5.E-1));
#345=DIRECTION('',(0.E0,0.E0,1.E0));
#346=DIRECTION('',(1.E0,0.E0,0.E0));
#347=AXIS2_PLACEMENT_3D('',#344,#345,#346);
#348=TOROIDAL_SURFACE('',#347,1.45E1,5.E-1);
#349=ORIENTED_EDGE('',*,*,#333,.T.);
#351=ORIENTED_EDGE('',*,*,#350,.T.);
#352=ORIENTED_EDGE('',*,*,#209,.T.);
#354=ORIENTED_EDGE('',*,*,#353,.F.);
#355=EDGE_LOOP('',(#349,#351,#352,#354));
#356=FACE_OUTER_BOUND('',#355,.F.);
#357=ADVANCED_FACE('',(#356),#348,.T.);
#358=CARTESIAN_POINT('',(0.E0,0.E0,5.E-1));
#359=DIRECTION('',(0.E0,0.E0,1.E0));
#360=DIRECTION('',(1.E0,0.E0,0.E0));
#361=AXIS2_PLACEMENT_3D('',#358,#359,#360);
#362=TOROIDAL_SURFACE('',#361,1.45E1,5.E-1);
#363=ORIENTED_EDGE('',*,*,#335,.T.);
#364=ORIENTED_EDGE('',*,*,#353,.T.);
#365=ORIENTED_EDGE('',*,*,#194,.T.);
#366=ORIENTED_EDGE('',*,*,#350,.F.);
#367=EDGE_LOOP('',(#363,#364,#365,#366));
#368=FACE_OUTER_BOUND('',#367,.F.);
#369=ADVANCED_FACE('',(#368),#362,.T.);
#373=DIMENSIONAL_EXPONENTS(0.E0,0.E0,0.E0,0.E0,0.E0,0.E0,0.E0);
#375=PLANE_ANGLE_MEASURE_WITH_UNIT(PLANE_ANGLE_MEASURE(1.745329251994E-2),#374);
#376=(CONVERSION_BASED_UNIT('DEGREE',#375)NAMED_UNIT(*)PLANE_ANGLE_UNIT());
#378=UNCERTAINTY_MEASURE_WITH_UNIT(LENGTH_MEASURE(4.253063934265E-3),#372,
'closure',
'Maximum model space distance between geometric entities at asserted connectivities');
#379=(GEOMETRIC_REPRESENTATION_CONTEXT(3)GLOBAL_UNCERTAINTY_ASSIGNED_CONTEXT((
#378))GLOBAL_UNIT_ASSIGNED_CONTEXT((#372,#376,#377))REPRESENTATION_CONTEXT
('ID1','3'));
#381=APPLICATION_CONTEXT(
'CONFIGURATION CONTROLLED 3D DESIGNS OF MECHANICAL PARTS AND ASSEMBLIES');
#382=APPLICATION_PROTOCOL_DEFINITION('international standard',
'config_control_design',1994,#381);
#383=DESIGN_CONTEXT('',#381,'design');
#384=MECHANICAL_CONTEXT('',#381,'mechanical');
#385=PRODUCT('RF30-TGH-ER3016K','RF30-TGH-ER3016K','NOT SPECIFIED',(#384));
#386=PRODUCT_DEFINITION_FORMATION_WITH_SPECIFIED_SOURCE('1','LAST_VERSION',#385,
.MADE.);
#390=PRODUCT_CATEGORY('part','');
#391=PRODUCT_RELATED_PRODUCT_CATEGORY('detail','',(#385));
#392=PRODUCT_CATEGORY_RELATIONSHIP('','',#390,#391);
#393=SECURITY_CLASSIFICATION_LEVEL('unclassified');
#394=SECURITY_CLASSIFICATION('','',#393);
#395=CC_DESIGN_SECURITY_CLASSIFICATION(#394,(#386));
#396=APPROVAL_STATUS('approved');
#397=APPROVAL(#396,'');
#398=CC_DESIGN_APPROVAL(#397,(#394,#386,#387));
#399=CALENDAR_DATE(124,8,11);
#400=COORDINATED_UNIVERSAL_TIME_OFFSET(8,0,.AHEAD.);
#401=LOCAL_TIME(9,34,5.8E1,#400);
#402=DATE_AND_TIME(#399,#401);
#403=APPROVAL_DATE_TIME(#402,#397);
#404=DATE_TIME_ROLE('creation_date');
#405=CC_DESIGN_DATE_AND_TIME_ASSIGNMENT(#402,#404,(#387));
#406=DATE_TIME_ROLE('classification_date');
#407=CC_DESIGN_DATE_AND_TIME_ASSIGNMENT(#402,#406,(#394));
#408=PERSON('UNSPECIFIED','UNSPECIFIED',$,$,$,$);
#409=ORGANIZATION('UNSPECIFIED','UNSPECIFIED','UNSPECIFIED');
#410=PERSON_AND_ORGANIZATION(#408,#409);
#411=APPROVAL_ROLE('approver');
#412=APPROVAL_PERSON_ORGANIZATION(#410,#397,#411);
#413=PERSON_AND_ORGANIZATION_ROLE('creator');
#414=CC_DESIGN_PERSON_AND_ORGANIZATION_ASSIGNMENT(#410,#413,(#386,#387));
#415=PERSON_AND_ORGANIZATION_ROLE('design_supplier');
#416=CC_DESIGN_PERSON_AND_ORGANIZATION_ASSIGNMENT(#410,#415,(#386));
#417=PERSON_AND_ORGANIZATION_ROLE('classification_officer');
#418=CC_DESIGN_PERSON_AND_ORGANIZATION_ASSIGNMENT(#410,#417,(#394));
#419=PERSON_AND_ORGANIZATION_ROLE('design_owner');
#420=CC_DESIGN_PERSON_AND_ORGANIZATION_ASSIGNMENT(#410,#419,(#385));
#6=CIRCLE('',#5,1.5E1);
#11=CIRCLE('',#10,1.485355339059E1);
#16=CIRCLE('',#15,1.5E1);
#21=CIRCLE('',#20,5.E-1);
#26=CIRCLE('',#25,1.485355339059E1);
#31=CIRCLE('',#30,5.E-1);
#44=CIRCLE('',#43,1.5E1);
#49=CIRCLE('',#48,5.E-1);
#54=CIRCLE('',#53,5.E-1);
#59=CIRCLE('',#58,1.5E1);
#64=CIRCLE('',#63,1.485355339059E1);
#69=CIRCLE('',#68,1.45E1);
#74=CIRCLE('',#73,1.45E1);
#79=CIRCLE('',#78,2.5E0);
#84=CIRCLE('',#83,2.5E0);
#89=CIRCLE('',#88,5.E-1);
#94=CIRCLE('',#93,1.485355339059E1);
#99=CIRCLE('',#98,5.E-1);
#112=CIRCLE('',#111,1.45E1);
#117=CIRCLE('',#116,1.45E1);
#122=CIRCLE('',#121,2.5E0);
#127=CIRCLE('',#126,2.5E0);
#132=CIRCLE('',#131,5.E-1);
#137=CIRCLE('',#136,5.E-1);
#175=EDGE_CURVE('',#145,#141,#6,.T.);
#177=EDGE_CURVE('',#140,#141,#39,.T.);
#179=EDGE_CURVE('',#140,#144,#59,.T.);
#181=EDGE_CURVE('',#144,#145,#35,.T.);
#192=EDGE_CURVE('',#159,#145,#31,.T.);
#194=EDGE_CURVE('',#157,#159,#11,.T.);
#196=EDGE_CURVE('',#157,#141,#21,.T.);
#206=EDGE_CURVE('',#141,#145,#16,.T.);
#209=EDGE_CURVE('',#159,#157,#26,.T.);
#222=EDGE_CURVE('',#144,#140,#44,.T.);
#234=EDGE_CURVE('',#144,#165,#49,.T.);
#236=EDGE_CURVE('',#165,#163,#94,.T.);
#238=EDGE_CURVE('',#140,#163,#54,.T.);
#250=EDGE_CURVE('',#163,#165,#64,.T.);
#261=EDGE_CURVE('',#169,#167,#69,.T.);
#263=EDGE_CURVE('',#165,#167,#99,.T.);
#266=EDGE_CURVE('',#163,#169,#89,.T.);
#277=EDGE_CURVE('',#167,#169,#74,.T.);
#281=EDGE_CURVE('',#148,#152,#79,.T.);
#283=EDGE_CURVE('',#152,#148,#84,.T.);
#306=EDGE_CURVE('',#152,#153,#103,.T.);
#308=EDGE_CURVE('',#153,#149,#127,.T.);
#310=EDGE_CURVE('',#148,#149,#107,.T.);
#322=EDGE_CURVE('',#149,#153,#122,.T.);
#333=EDGE_CURVE('',#156,#161,#112,.T.);
#335=EDGE_CURVE('',#161,#156,#117,.T.);
#350=EDGE_CURVE('',#161,#159,#132,.T.);
#353=EDGE_CURVE('',#156,#157,#137,.T.);
#370=CLOSED_SHELL('',(#185,#200,#214,#227,#242,#255,#270,#287,#299,#314,#327,
#343,#357,#369));
#371=MANIFOLD_SOLID_BREP('',#370);
#372=(LENGTH_UNIT()NAMED_UNIT(*)SI_UNIT(.MILLI.,.METRE.));
#374=(NAMED_UNIT(*)PLANE_ANGLE_UNIT()SI_UNIT($,.RADIAN.));
#377=(NAMED_UNIT(*)SI_UNIT($,.STERADIAN.)SOLID_ANGLE_UNIT());
#380=ADVANCED_BREP_SHAPE_REPRESENTATION('',(#371),#379);
#387=PRODUCT_DEFINITION('design','',#386,#383);
#388=PRODUCT_DEFINITION_SHAPE('','SHAPE FOR RF30-TGH-ER3016K.',#387);
#389=SHAPE_DEFINITION_REPRESENTATION(#388,#380);
ENDSEC;
END-ISO-10303-21;
